へなちょこの挑戦!!
ヘタクソながらも歪み系ギターにチャレンジし、その成長過程?を記録します
スポンサーサイト
上記の広告は1ヶ月以上更新のないブログに表示されています。
新しい記事を書く事で広告が消せます。
最近はこればかり・・・

-------------------------------------------------16-17-18-19-19-18-17-16------
-------------------------------------15-16-17-18-------------------------18-17-
-------------------------14-15-16-17------------------------------------------
-------------13-14-15-16-------------------------------------
-12-13-14-15------------------------------------------------- ~てな感じで・・・
-------------------------------------------------------------


------------------------------------------------8-9-10-11-11-10-9-8---------
-------------------------------------9-10-11-12---------------------12-11-10-9-
-------------------------10-11-12-13---------------------------------------  
-------------11-12-13-14-------------------------------------
-12-13-14-15-------------------------------------------------  ~てな感じです・・orz
-------------------------------------------------------------




①に比べ②の小指から始まる運指が非常にぎこちないです。
押弦したあと小指&薬指が、これでもかっ!!・・・ってな感じで宙にういてしまいますね~(笑)
おまけにもの凄くストレスを感じるのですが(* ̄O ̄)ノ・・
う~ん・・小指先行だとピッキングがガタガタに(おそらく弱点なのでしょう・・)

・・・orz

継続は力なり!!

あっ・・・
新しいPC入手しました♪

















スポンサーサイト
Copyright © 2017 へなちょこの挑戦!!. all rights reserved.

上記広告は1ヶ月以上更新のないブログに表示されています。新しい記事を書くことで広告を消せます。